КиноСтук Текст

0 Голосов
Вступление: Em | G G D Dsus4 | Am | Bm F#m }x2 
Em | G G F# G | C | Bm Bm G F# }x2

Em
Струн провода, ток по рукам,
Am Em
Телефон на все голоса говорит: "Пока!" Пора…
Em
И пальто на гвозде, шарф в рукаве,
Am Em
И перчатки в карманах шепчут: "Подожди до утра!" До утра…

Припев:
G Am Em
Но странный стук зовёт в дорогу.
G Am Em
Может, сердца, а может, стук в дверь.
G Am Em
И когда я обернусь на пороге,
Am D Em
Я скажу одно лишь слово: "Верь!"

Проигрыш: Em | G G F# G | C | Bm Bm G F# }x2

(подбор табулатуры - Rock_Fan_dale_Der)
|----------------------------------------|---15--------------15------14------15-|
|---12-----------------------------------|-----------13-------------------------|
|---12---------------12-----------9------|--------------------------------------|
|----------------------------------------|--------------------------------------|
|----------------------------------------|--------------------------------------|
|----------------------------------------|--------------------------------------|

|----------------------------------------|------------------------------------|
|---0-2-0-2-0----------8--10--8----------|----------------------------10-9-10-|
|----------------------------------------|--------------------7-9-7-9---------|
|----------------------------------------|------------7-8-7-8-10-12-10-12-----|
|----------------------------------------|-10---------------------------------|
|----------------------------------------|------------------------------------|

Em
И опять на вокзал, и опять к поездам,
Am Em
И опять проводник выдаст бельё и чай. М-мм.
Em
И опять не усну, и опять сквозь грохот колёс
Am Em
Мне послышится слово "прощай".

Припев:
G Am Em
Но странный стук зовёт в дорогу.
G Am Em
Может, сердца, а может, стук в дверь.
G Am Em
И когда я обернусь на пороге,
Am D Em
Я скажу одно лишь слово: "Верь!"

G Am Em
Но странный стук зовёт в дорогу.
G Am Em
Может, сердца, а может, стук в дверь.
G Am Em
И когда я обернусь на пороге,
Am D Em
Я скажу одно лишь слово…

Кода: Em | G G F# G | C | Bm Bm G F# }x6
Другие песни: